ISO-10303-21;
HEADER;
FILE_DESCRIPTION (( 'STEP AP203' ),
    '1' );
FILE_NAME ('MHWP-25.4-808.STEP',
    '2020-12-22T09:27:23',
    ( '' ),
    ( '' ),
    'SwSTEP 2.0',
    'SolidWorks 2020',
    '' );
FILE_SCHEMA (( 'CONFIG_CONTROL_DESIGN' ));
ENDSEC;

DATA;
#1 = FACE_OUTER_BOUND ( 'NONE', #39, .T. ) ;
#2 = FACE_OUTER_BOUND ( 'NONE', #80, .T. ) ;
#3 = VECTOR ( 'NONE', #150, 1000.000000000000000 ) ;
#4 = APPROVAL ( #158, 'UNSPECIFIED' ) ;
#5 = DATE_AND_TIME ( #6, #35 ) ;
#6 = CALENDAR_DATE ( 2020, 22, 12 ) ;
#7 = CIRCLE ( 'NONE', #46, 12.69999999999999929 ) ;
#8 = APPROVAL_PERSON_ORGANIZATION ( #56, #51, #21 ) ;
#9 = ORIENTED_EDGE ( 'NONE', *, *, #78, .F. ) ;
#10 = PERSON_AND_ORGANIZATION ( #97, #24 ) ;
#11 = ORIENTED_EDGE ( 'NONE', *, *, #78, .T. ) ;
#12 = ORIENTED_EDGE ( 'NONE', *, *, #75, .T. ) ;
#13 = LINE ( 'NONE', #37, #3 ) ;
#14 = DIRECTION ( 'NONE',  ( -1.000000000000000000, 0.000000000000000000, -0.000000000000000000 ) ) ;
#15 = VERTEX_POINT ( 'NONE', #94 ) ;
#16 = ADVANCED_FACE ( 'NONE', ( #2 ), #67, .T. ) ;
#17 = CARTESIAN_POINT ( 'NONE',  ( 1.999999999999999112, 12.69999999999999929, 0.000000000000000000 ) ) ;
#18 = CIRCLE ( 'NONE', #115, 12.69999999999999929 ) ;
#19 = APPROVAL_STATUS ( 'not_yet_approved' ) ;
#20 = DIRECTION ( 'NONE',  ( 1.000000000000000000, 0.000000000000000000, 0.000000000000000000 ) ) ;
#21 = APPROVAL_ROLE ( '' ) ;
#22 = DATE_AND_TIME ( #113, #82 ) ;
#23 = SECURITY_CLASSIFICATION_LEVEL ( 'unclassified' ) ;
#24 = ORGANIZATION ( 'UNSPECIFIED', 'UNSPECIFIED', '' ) ;
#25 = CARTESIAN_POINT ( 'NONE',  ( 0.000000000000000000, 0.000000000000000000, 0.000000000000000000 ) ) ;
#26 = VERTEX_POINT ( 'NONE', #105 ) ;
#27 = FACE_OUTER_BOUND ( 'NONE', #161, .T. ) ;
#28 = DIRECTION ( 'NONE',  ( -1.000000000000000000, -0.000000000000000000, -0.000000000000000000 ) ) ;
#29 = APPROVAL_STATUS ( 'not_yet_approved' ) ;
#30 =( NAMED_UNIT ( * ) PLANE_ANGLE_UNIT ( ) SI_UNIT ( $, .RADIAN. ) );
#31 =( GEOMETRIC_REPRESENTATION_CONTEXT ( 3 ) GLOBAL_UNCERTAINTY_ASSIGNED_CONTEXT ( ( #90 ) ) GLOBAL_UNIT_ASSIGNED_CONTEXT ( ( #85, #30, #130 ) ) REPRESENTATION_CONTEXT ( 'NONE', 'WORKASPACE' ) );
#32 = APPROVAL_ROLE ( '' ) ;
#33 = APPROVAL_DATE_TIME ( #152, #168 ) ;
#34 = PERSON_AND_ORGANIZATION ( #97, #24 ) ;
#35 = LOCAL_TIME ( 17, 27, 23.00000000000000000, #153 ) ;
#36 = ORIENTED_EDGE ( 'NONE', *, *, #134, .F. ) ;
#37 = CARTESIAN_POINT ( 'NONE',  ( 0.000000000000000000, 0.000000000000000000, 12.69999999999999929 ) ) ;
#38 = APPROVAL_PERSON_ORGANIZATION ( #34, #4, #32 ) ;
#39 = EDGE_LOOP ( 'NONE', ( #12, #77 ) ) ;
#40 = DIRECTION ( 'NONE',  ( -1.000000000000000000, -0.000000000000000000, -0.000000000000000000 ) ) ;
#41 = CC_DESIGN_PERSON_AND_ORGANIZATION_ASSIGNMENT ( #60, #100, ( #139 ) ) ;
#42 = CIRCLE ( 'NONE', #104, 12.69999999999999929 ) ;
#43 = ORIENTED_EDGE ( 'NONE', *, *, #148, .T. ) ;
#44 = CARTESIAN_POINT ( 'NONE',  ( 1.999999999999998224, 0.000000000000000000, 0.000000000000000000 ) ) ;
#45 = COORDINATED_UNIVERSAL_TIME_OFFSET ( 8, 0, .AHEAD. ) ;
#46 = AXIS2_PLACEMENT_3D ( 'NONE', #127, #146, #166 ) ;
#47 = PRODUCT_DEFINITION_FORMATION_WITH_SPECIFIED_SOURCE ( 'ANY', '', #143, .NOT_KNOWN. ) ;
#48 = DIRECTION ( 'NONE',  ( 0.000000000000000000, 0.000000000000000000, 1.000000000000000000 ) ) ;
#49 = AXIS2_PLACEMENT_3D ( 'NONE', #93, #64, #147 ) ;
#50 = CYLINDRICAL_SURFACE ( 'NONE', #49, 12.69999999999999929 ) ;
#51 = APPROVAL ( #29, 'UNSPECIFIED' ) ;
#52 = DIRECTION ( 'NONE',  ( 0.000000000000000000, 0.000000000000000000, 1.000000000000000000 ) ) ;
#53 = DIRECTION ( 'NONE',  ( 0.000000000000000000, 0.000000000000000000, 1.000000000000000000 ) ) ;
#54 = AXIS2_PLACEMENT_3D ( 'NONE', #25, #63, #53 ) ;
#55 = COORDINATED_UNIVERSAL_TIME_OFFSET ( 8, 0, .AHEAD. ) ;
#56 = PERSON_AND_ORGANIZATION ( #97, #24 ) ;
#57 = MECHANICAL_CONTEXT ( 'NONE', #120, 'mechanical' ) ;
#58 = PERSON_AND_ORGANIZATION_ROLE ( 'design_owner' ) ;
#59 = PERSON_AND_ORGANIZATION_ROLE ( 'design_supplier' ) ;
#60 = PERSON_AND_ORGANIZATION ( #97, #24 ) ;
#61 = ORIENTED_EDGE ( 'NONE', *, *, #75, .F. ) ;
#62 = ADVANCED_FACE ( 'NONE', ( #1 ), #163, .F. ) ;
#63 = DIRECTION ( 'NONE',  ( -1.000000000000000000, -0.000000000000000000, -0.000000000000000000 ) ) ;
#64 = DIRECTION ( 'NONE',  ( -1.000000000000000000, -0.000000000000000000, -0.000000000000000000 ) ) ;
#65 = APPLICATION_CONTEXT ( 'configuration controlled 3d designs of mechanical parts and assemblies' ) ;
#66 = CARTESIAN_POINT ( 'NONE',  ( -1.187907395172932594E-15, 0.000000000000000000, 0.000000000000000000 ) ) ;
#67 = CYLINDRICAL_SURFACE ( 'NONE', #54, 12.69999999999999929 ) ;
#68 = SHAPE_DEFINITION_REPRESENTATION ( #174, #167 ) ;
#69 = DIRECTION ( 'NONE',  ( 1.000000000000000000, 0.000000000000000000, 0.000000000000000000 ) ) ;
#70 = APPROVAL_ROLE ( '' ) ;
#71 = CC_DESIGN_DATE_AND_TIME_ASSIGNMENT ( #5, #110, ( #96 ) ) ;
#72 = PERSON_AND_ORGANIZATION ( #97, #24 ) ;
#73 = CALENDAR_DATE ( 2020, 22, 12 ) ;
#74 = AXIS2_PLACEMENT_3D ( 'NONE', #17, #14, #103 ) ;
#75 = EDGE_CURVE ( 'NONE', #79, #26, #7, .T. ) ;
#76 = LOCAL_TIME ( 17, 27, 23.00000000000000000, #89 ) ;
#77 = ORIENTED_EDGE ( 'NONE', *, *, #134, .T. ) ;
#78 = EDGE_CURVE ( 'NONE', #102, #79, #13, .T. ) ;
#79 = VERTEX_POINT ( 'NONE', #135 ) ;
#80 = EDGE_LOOP ( 'NONE', ( #140, #173, #11, #36 ) ) ;
#81 = PLANE ( 'NONE',  #74 ) ;
#82 = LOCAL_TIME ( 17, 27, 23.00000000000000000, #99 ) ;
#83 = LOCAL_TIME ( 17, 27, 23.00000000000000000, #55 ) ;
#84 = DATE_AND_TIME ( #73, #83 ) ;
#85 =( LENGTH_UNIT ( ) NAMED_UNIT ( * ) SI_UNIT ( .MILLI., .METRE. ) );
#86 = ADVANCED_FACE ( 'NONE', ( #91 ), #50, .T. ) ;
#87 = VECTOR ( 'NONE', #40, 1000.000000000000000 ) ;
#88 = ORIENTED_EDGE ( 'NONE', *, *, #156, .T. ) ;
#89 = COORDINATED_UNIVERSAL_TIME_OFFSET ( 8, 0, .AHEAD. ) ;
#90 = UNCERTAINTY_MEASURE_WITH_UNIT (LENGTH_MEASURE( 1.000000000000000082E-05 ), #85, 'distance_accuracy_value', 'NONE');
#91 = FACE_OUTER_BOUND ( 'NONE', #121, .T. ) ;
#92 = CC_DESIGN_APPROVAL ( #4, ( #139 ) ) ;
#93 = CARTESIAN_POINT ( 'NONE',  ( 0.000000000000000000, 0.000000000000000000, 0.000000000000000000 ) ) ;
#94 = CARTESIAN_POINT ( 'NONE',  ( 1.999999999999998224, 1.555301434917138433E-15, -12.69999999999999929 ) ) ;
#95 = CALENDAR_DATE ( 2020, 22, 12 ) ;
#96 = PRODUCT_DEFINITION ( 'UNKNOWN', '', #47, #132 ) ;
#97 = PERSON ( 'UNSPECIFIED', 'UNSPECIFIED', 'UNSPECIFIED', ('UNSPECIFIED'), ('UNSPECIFIED'), ('UNSPECIFIED') ) ;
#98 = CC_DESIGN_PERSON_AND_ORGANIZATION_ASSIGNMENT ( #151, #58, ( #143 ) ) ;
#99 = COORDINATED_UNIVERSAL_TIME_OFFSET ( 8, 0, .AHEAD. ) ;
#100 = PERSON_AND_ORGANIZATION_ROLE ( 'classification_officer' ) ;
#101 = CC_DESIGN_PERSON_AND_ORGANIZATION_ASSIGNMENT ( #171, #59, ( #47 ) ) ;
#102 = VERTEX_POINT ( 'NONE', #136 ) ;
#103 = DIRECTION ( 'NONE',  ( -0.000000000000000000, 0.000000000000000000, 1.000000000000000000 ) ) ;
#104 = AXIS2_PLACEMENT_3D ( 'NONE', #66, #123, #52 ) ;
#105 = CARTESIAN_POINT ( 'NONE',  ( -1.187907395172932594E-15, 1.555301434917138433E-15, -12.69999999999999929 ) ) ;
#106 = CC_DESIGN_APPROVAL ( #51, ( #96 ) ) ;
#107 = LINE ( 'NONE', #165, #87 ) ;
#108 = CARTESIAN_POINT ( 'NONE',  ( -5.939536975864662969E-16, 12.69999999999999929, 0.000000000000000000 ) ) ;
#109 = CIRCLE ( 'NONE', #145, 12.69999999999999929 ) ;
#110 = DATE_TIME_ROLE ( 'creation_date' ) ;
#111 = DIRECTION ( 'NONE',  ( 0.000000000000000000, 0.000000000000000000, 1.000000000000000000 ) ) ;
#112 = APPROVAL_DATE_TIME ( #84, #51 ) ;
#113 = CALENDAR_DATE ( 2020, 22, 12 ) ;
#114 = PRODUCT_RELATED_PRODUCT_CATEGORY ( 'detail', '', ( #143 ) ) ;
#115 = AXIS2_PLACEMENT_3D ( 'NONE', #44, #129, #111 ) ;
#116 = APPROVAL_DATE_TIME ( #118, #4 ) ;
#117 = APPROVAL_PERSON_ORGANIZATION ( #141, #168, #70 ) ;
#118 = DATE_AND_TIME ( #131, #76 ) ;
#119 = ORIENTED_EDGE ( 'NONE', *, *, #175, .F. ) ;
#120 = APPLICATION_CONTEXT ( 'configuration controlled 3d designs of mechanical parts and assemblies' ) ;
#121 = EDGE_LOOP ( 'NONE', ( #88, #43, #61, #9 ) ) ;
#122 = AXIS2_PLACEMENT_3D ( 'NONE', #108, #69, #125 ) ;
#123 = DIRECTION ( 'NONE',  ( -1.000000000000000000, -0.000000000000000000, -0.000000000000000000 ) ) ;
#124 = ADVANCED_FACE ( 'NONE', ( #27 ), #81, .F. ) ;
#125 = DIRECTION ( 'NONE',  ( 0.000000000000000000, 0.000000000000000000, -1.000000000000000000 ) ) ;
#126 = MANIFOLD_SOLID_BREP ( 'Ðý×', #160 ) ;
#127 = CARTESIAN_POINT ( 'NONE',  ( -1.187907395172932594E-15, 0.000000000000000000, 0.000000000000000000 ) ) ;
#128 = APPLICATION_PROTOCOL_DEFINITION ( 'international standard', 'config_control_design', 1994, #120 ) ;
#129 = DIRECTION ( 'NONE',  ( -1.000000000000000000, -0.000000000000000000, -0.000000000000000000 ) ) ;
#130 =( NAMED_UNIT ( * ) SI_UNIT ( $, .STERADIAN. ) SOLID_ANGLE_UNIT ( ) );
#131 = CALENDAR_DATE ( 2020, 22, 12 ) ;
#132 = DESIGN_CONTEXT ( 'detailed design', #65, 'design' ) ;
#133 = LOCAL_TIME ( 17, 27, 23.00000000000000000, #45 ) ;
#134 = EDGE_CURVE ( 'NONE', #26, #79, #42, .T. ) ;
#135 = CARTESIAN_POINT ( 'NONE',  ( -1.187907395172932594E-15, 0.000000000000000000, 12.69999999999999929 ) ) ;
#136 = CARTESIAN_POINT ( 'NONE',  ( 1.999999999999998224, 0.000000000000000000, 12.69999999999999929 ) ) ;
#137 = CC_DESIGN_PERSON_AND_ORGANIZATION_ASSIGNMENT ( #10, #159, ( #47 ) ) ;
#138 = DIRECTION ( 'NONE',  ( 0.000000000000000000, 0.000000000000000000, 1.000000000000000000 ) ) ;
#139 = SECURITY_CLASSIFICATION ( '', '', #23 ) ;
#140 = ORIENTED_EDGE ( 'NONE', *, *, #148, .F. ) ;
#141 = PERSON_AND_ORGANIZATION ( #97, #24 ) ;
#142 = CC_DESIGN_DATE_AND_TIME_ASSIGNMENT ( #22, #170, ( #139 ) ) ;
#143 = PRODUCT ( 'MHWP-25.4-808', 'MHWP-25.4-808', '', ( #57 ) ) ;
#144 = CC_DESIGN_APPROVAL ( #168, ( #47 ) ) ;
#145 = AXIS2_PLACEMENT_3D ( 'NONE', #149, #28, #138 ) ;
#146 = DIRECTION ( 'NONE',  ( -1.000000000000000000, -0.000000000000000000, -0.000000000000000000 ) ) ;
#147 = DIRECTION ( 'NONE',  ( 0.000000000000000000, 0.000000000000000000, 1.000000000000000000 ) ) ;
#148 = EDGE_CURVE ( 'NONE', #15, #26, #107, .T. ) ;
#149 = CARTESIAN_POINT ( 'NONE',  ( 1.999999999999998224, 0.000000000000000000, 0.000000000000000000 ) ) ;
#150 = DIRECTION ( 'NONE',  ( -1.000000000000000000, -0.000000000000000000, -0.000000000000000000 ) ) ;
#151 = PERSON_AND_ORGANIZATION ( #97, #24 ) ;
#152 = DATE_AND_TIME ( #95, #133 ) ;
#153 = COORDINATED_UNIVERSAL_TIME_OFFSET ( 8, 0, .AHEAD. ) ;
#154 = AXIS2_PLACEMENT_3D ( 'NONE', #169, #48, #20 ) ;
#155 = PERSON_AND_ORGANIZATION_ROLE ( 'creator' ) ;
#156 = EDGE_CURVE ( 'NONE', #102, #15, #109, .T. ) ;
#157 = APPLICATION_PROTOCOL_DEFINITION ( 'international standard', 'config_control_design', 1994, #65 ) ;
#158 = APPROVAL_STATUS ( 'not_yet_approved' ) ;
#159 = PERSON_AND_ORGANIZATION_ROLE ( 'creator' ) ;
#160 = CLOSED_SHELL ( 'NONE', ( #86, #16, #124, #62 ) ) ;
#161 = EDGE_LOOP ( 'NONE', ( #162, #119 ) ) ;
#162 = ORIENTED_EDGE ( 'NONE', *, *, #156, .F. ) ;
#163 = PLANE ( 'NONE',  #122 ) ;
#164 = CC_DESIGN_SECURITY_CLASSIFICATION ( #139, ( #47 ) ) ;
#165 = CARTESIAN_POINT ( 'NONE',  ( 0.000000000000000000, 1.555301434917138433E-15, -12.69999999999999929 ) ) ;
#166 = DIRECTION ( 'NONE',  ( 0.000000000000000000, 0.000000000000000000, 1.000000000000000000 ) ) ;
#167 = ADVANCED_BREP_SHAPE_REPRESENTATION ( 'MHWP-25.4-808', ( #126, #154 ), #31 ) ;
#168 = APPROVAL ( #19, 'UNSPECIFIED' ) ;
#169 = CARTESIAN_POINT ( 'NONE',  ( 0.000000000000000000, 0.000000000000000000, 0.000000000000000000 ) ) ;
#170 = DATE_TIME_ROLE ( 'classification_date' ) ;
#171 = PERSON_AND_ORGANIZATION ( #97, #24 ) ;
#172 = CC_DESIGN_PERSON_AND_ORGANIZATION_ASSIGNMENT ( #72, #155, ( #96 ) ) ;
#173 = ORIENTED_EDGE ( 'NONE', *, *, #175, .T. ) ;
#174 = PRODUCT_DEFINITION_SHAPE ( 'NONE', 'NONE',  #96 ) ;
#175 = EDGE_CURVE ( 'NONE', #15, #102, #18, .T. ) ;
ENDSEC;
END-ISO-10303-21;
